LaCuerda.net: Comunidad
Conexión · Inscripción
Comunidad

 Control de Foros 
Actividad
Organizar suscripciones
Organizar Favoritos
Organizar borradores

Foros de Discusión
Foros de Discusión
Inicio · Buscar · Ayuda

Responder al tema  [ 2 mensajes ] 
 intro Luchin 
Autor Mensaje

Registrado:
02 Feb 2015, 13:10
Mensajes: 1
Mensaje sin leer intro Luchin
tab(intro)Luchin-Victor Jara




1.-----7----------7---------5----------7----------7--------5-----------7---------7--------5-----------
2.--------7----------7-----------5----------7--------7----------5----------7---------7--------5-------
3.------------0----------------------------------0------------------------------0------------------------
4.--------------------------------------------------------------------------------------------------------
5.--------------------------------------------------------------------------------------------------------
6.------0---------------------0----------0-------------------0-----------0------------------0----------


1.---------------------------------------------------------------------------------------------------
2.---3-------------3--------------2---------------------------------------------------------------------
3.--------0-------------0------------------------------------------------------------------------------
4.-------------0--------------------------------------------------------------------------------------
5.----2---------------------------------------4-----4----4----4---------------------------------------
6.---------------------------------------------2-----2----2----2----------------------------------------


02 Feb 2015, 13:45
Perfil
Avatar de Usuario

Registrado:
21 Jun 2012, 03:21
Mensajes: 70
Mensaje sin leer Re: intro Luchin
Hola, bienvenid@ al foro...

Creo que este no es el lugar apropiado para publicar una transcripción....

Si deseas colaborar para la web puedes hacerlo con tu misma cuenta en este apartado:

http://lacuerda.net/Evolucion/colabora.php

Ubicas el artista, el tema, y publicas tu tablatura...

Una vez enviada la transcripción, debes esperar un par de semanas para su respectiva aprobación y actualización... y listo! si no hubo inconvenientes con tu tablatura ya la puedes ver en el banco de transcripciones de lacuerda...

Eso es todo..

Saludos :D


02 Feb 2015, 22:20
Perfil
Mostrar mensajes previos:  Ordenar por  
Responder al tema   [ 2 mensajes ] 

¿Quién está conectado?

Usuarios navegando por este Foro: No hay usuarios registrados visitando el Foro y 1 invitado


No puedes abrir nuevos temas
No puedes responder a temas
No puedes editar tus mensajes
No puedes borrar tus mensajes

Buscar:
Saltar a:  
cron
Powered by phpBB © 2000, 2002, 2005, 2007 phpBB Group.
Designed by STSoftware for PTF.
Traducción al español por Huan Manwë para phpbb-es.com

© LaCuerda.net · Aviso Legal · Privacidad