LaCuerda Comunidad
http://lacuerda.net/Usuarios/Foro/

Indignación o no sé qué
http://lacuerda.net/Usuarios/Foro/viewtopic.php?f=7&t=52616
Página 1 de 1

Autor:  HumildeCancionero [ 31 Jul 2017, 15:33 ]
Asunto:  Indignación o no sé qué

Hay varias tablaturas de "Tu cárcel" pero para mi gusto no tiene nada qué ver con la que encontré y quiero subir (Anexo un pequeño pedazo de ambas). Aquí salen mal pues no es tamaño de texto unicode, pero da una buena idea de lo que pasa.

Versión existente
D A F#7
e --0/2--2--0-----------0--2--2-----0---0-------------------0--0--
B -------------3----3--3---------3---------3--2----2--2--3--------
G ----------------------------------------------------------------
D ----------------------------------------------------------------
A ----------------------------------------------------------------
E ----------------------------------------------------------------

Versión que encontré
D
E|----------------|---------2------|----------------|-2----2---------|
B|----------------|-----3-----3---3|----3--3--3-----|----------3-----|
G|------2---2---0-|---2---2-----2--|----------------|----------------|
D|------0---------|-4--------------|-0--------------|-0--------------|
A|----------------|----------------|----------------|----------------|
E|----------------|----------------|----------------|----------------|
Te vas a mor, sia sí lo quie res que

Si ven la diferencia, se dan cuenta que una solo tiene las notas básicas mientras que la otra tiene armonía.

La cosa es que no se puede subir porque ya hay versiones previas bien calificadas. Me pregunto: ¿Como puede alguien calificar bien una tablatura que se toca de a dedito?

Autor:  jobert [ 05 Ago 2017, 14:10 ]
Asunto:  Re: Indignación o no sé qué

Hola HumildeCancionero, es muy buena tu idea. Comunícate directamente con Octavio el admin del sitio. Ingresa a este link --> http://lacuerda.net/Extras/contacto.php


¡Saludos!

Página 1 de 1 Todos los horarios son UTC - 6 horas
Powered by phpBB © 2000, 2002, 2005, 2007 phpBB Group
http://www.phpbb.com/