LaCuerda.net: Comunidad
Conexión · Inscripción
Comunidad

 Control de Foros 
Actividad
Organizar suscripciones
Organizar Favoritos
Organizar borradores

Foros de Discusión
Foros de Discusión
Inicio · Buscar · Ayuda

Responder al tema  [ 1 mensaje ] 
 Ejemplo de tema rechazado 
Autor Mensaje
Avatar de Usuario

Registrado:
15 Jul 2013, 11:38
Mensajes: 25
Mensaje sin leer Ejemplo de tema rechazado
Hola. Esta canción se ve bien y se trata de una tablatura que puede reemplazar a muchas otras, pero al momento que se muestra en el previo se ven desplazados los caracteres en algunas líneas (Este desplazamiento sólo se ve si los acordes son resaltados).
Seguramente tiene qué ver el tipo de letra, pero en unicode se ve bien y aquí en los foros claro que también se verán desplazadas las notas.
¿Alguien podría decirme cual es el problema? ¿Cómo tengo qué subir las tablaturas?

Gracias.

C Em A7 Dm

--0-----------0---0-----------0---0-----------0-------------------1-----------1
------1---------3-----0---------3-----2---------3-3---2-------2-------3--------
0---0---0---0-------0---0---0-------0---0---0-------0---0---2---2---2---2---2--
----------------------------------------------------------2-------0-------0----
--3-------3-------2-------2-------0-------2------------------------------------
--------------------------------------------------3----------------------------


G7 C C7

0-1-----------1-0-1---------3-3-1-1---0-----------3---------2-3-2-3---------5-0
------3---------------0-----------------------1-------1---------------1--------
----2---2---2-------0---0----------0---0---0---0---0---0-----------0---0-------
--0-------0--------------------------------------------------------------------
------------------2---------------3-------3-------3-------3-------3-------3----
--------------------------3----------------------------------------------------


F Fm C Dm G7

3-1---------1-1-0-3-1-----------1-0-----------1-0------------------------------
------1-------------------1-----------1-----------3---3---0-1-3-3-----0------0-
----2---2---------------1---1-------0---0---0-------2---2-----------0---0---0-0
--------------------------------------------------0----------------------------
--3-------3-------3---3-------3---3-------3------------------------------------
----------------------------------------------------------------3---------3----



C

------------------------------------------------
1---1-------1-----------------------------------
--0---0---0---0---------------------------------
------------------------------------------------
3-------3---------------------------------------
------------------------------------------------


10 Nov 2013, 21:22
Perfil
Mostrar mensajes previos:  Ordenar por  
Responder al tema   [ 1 mensaje ] 

¿Quién está conectado?

Usuarios navegando por este Foro: No hay usuarios registrados visitando el Foro y 1 invitado


No puedes abrir nuevos temas
No puedes responder a temas
No puedes editar tus mensajes
No puedes borrar tus mensajes

Buscar:
Saltar a:  
Powered by phpBB © 2000, 2002, 2005, 2007 phpBB Group.
Designed by STSoftware for PTF.
Traducción al español por Huan Manwë para phpbb-es.com

© LaCuerda.net · Aviso Legal · Privacidad