LaCuerda.net: Información práctica - Ejercicios
Conexión · Inscripción
Recursos

Información práctica - Ejercicios
Información práctica - Ejercicios
Copyright © 2000 Roberto Ochoa
  Ejercicios   ·  Articulos
Técnica Mano Izquierda, parte 3

por Guitar Man

Ejercicios Flamencos de Digitación

1. Ejercicios con dedos “Fijos”

Básicamente este ejercicio es igual al otro, solo que aquí haremos trabajar más a los dedos ya que la digitación será repetida.

  1. Nuevamente sigan la digitación que les marco en la parte de abajo de la tablatura.
  2. Seguiremos las mismas instrucciones que en el ejercicio pasado, sólo que aquí repetiremos la digitación del dedo meñique.
  3. Ataquen las cuerdas con los dedos Índice y Medio, como ya lo habíamos comentado, y como nota adicional, hagan la digitación apoyada. Así trabajarán las técnicas de ambas manos en un solo ejercicio.
Ejercicio 1
||------------------------------------------------------------------------------------8--7--8--6---||
||---------------------------------------------------------------------8--7--8--6------------------||
|o---5--------------------------------------------------8--7--8--6---------------------------------o|
|o---------------------------------------8--7--8--6------------------------------------------------o|
||------------------------8--7--8--6---------------------------------------------------------------||
||---------8--7--8--6------------------------------------------------------------------------------||
     I     Ñ  A  Ñ  M

Ejercicio 2
||---------------------------------------------------------------------8--7--8--5---||
||------------------------------------------------------8--7--8--5------------------||
|o---6------------------------------------------------------------------------------o|
|o---------------------------------------8--7--8--5---------------------------------o|
||------------------------8--7--8--5------------------------------------------------||
||---------8--7--8--5---------------------------------------------------------------||
     M     Ñ  A  Ñ  I

Ejercicio 3
||---------------------------------------------------------------------8--6--8--5---||
||------------------------------------------------------8--6--8--5------------------||
|o---7------------------------------------------------------------------------------o|
|o---------------------------------------8--6--8--5---------------------------------o|
||------------------------8--6--8--5------------------------------------------------||
||---------8--6--8--5---------------------------------------------------------------||
     A     Ñ  M  Ñ  I

Ejercicio 4
||---------------------------------------------------------------------7--6--7--5---||
||------------------------------------------------------7--6--7--5------------------||
|o---8------------------------------------------------------------------------------o|
|o---------------------------------------7--6--7--5---------------------------------o|
||------------------------7--6--7--5------------------------------------------------||
||---------7--6--7--5---------------------------------------------------------------||
     Ñ     A  M  A  I

La intención principal de este ejercicio es fortalecer de manera muy efectiva los dedos de la mano izquierda, así como la muñeca y el antebrazo, pero sobre todo la parte lateral de la mano, específicamente la parte inferior del dedo meñique, así tendrán más facilidad y fuerza al tiempo de hacer requintos donde requieran mucha fuerza en todos los dedos. Cuando ya tengan dominados los dos ejercicios, aumenten un poco la velocidad, traten de hacerlo a un tempo ligeramente rápido (90) siempre y cuando la digitación sea limpia, si no de nada sirve el esfuerzo.

Espero que estos ejercicios les sean útiles, y ya saben, cualquier cosa, solo escríbanme a mi cuenta de correo.


 Si deseas colaborar con esta sección, mandanos un mensaje.


  Ejercicios   ·  Articulos

© LaCuerda.net · Aviso Legal · Privacidad