LaCuerda.net: Información práctica - Ejercicios
Conexión · Inscripción
Recursos

Información práctica - Ejercicios
Información práctica - Ejercicios
Copyright © 2000 Roberto Ochoa
  Ejercicios   ·  Articulos
Técnica Mano Izquierda, parte 2

por Guitar Man

Ejercicios Flamencos de Digitación

Uno de los artes más Técnicos y Difíciles de dominar es el arte flamenco, ya que utilizan todas las técnicas conocidas que existen para la guitarra (y algunas otras más), y llegan a desarrollar una digitación increíblemente fina y precisa. Hace poco tiempo, tomé un clases particulares de flamenco y aprendí algunas técnicas y trucos para empezar a pulir la técnica clásica, que ya había empezado a dominar. Aquí les dejo algunos de los ejercicios flamencos, que en mi opinión, son los mejores que he practicado hasta ahora, ya que en poco tiempo desarrollas una independencia total en los dedos de la mano izquierda, que ningún otro ejercicio te la dará.

Parecerá repetitivo y tedioso, pero antes de empezar estos ejercicios (y cualquier otro) necesitan hacer una buena sesión de calentamiento, para evitarse problemas OJO!!!

1. Ejercicios con dedos “Fijos”

Bueno, ahora vamos a la explicación de cómo se realiza este ejercicio:

  • Sigan la digitación que les marco en la parte de abajo de cada ejercicio.
  • Como su nombre lo indica, hay que dejar 1 dedo fijo (anclado) de la mano izquierda en cada ejercicio, por ejemplo, en el primer ejercicio, hay que dejar el dedo índice en la tercera cuerda en el quinto traste fijo, mientras realizan la digitación 8 7 6 en cada cuerda, pero sin quitar el dedo, igual para los demás ejercicios, sólo que en cada uno va cambiando el dedo que se deja fijo. Espero que me haya explicado bien, si no, les pido que por favor me escriban a mi cuenta para aclarar cualquier duda.
  • Por último, para que este ejercicio sea más provechoso, con la mano derecha ataquen las cuerdas con los dedos Índice y Medio, para la guitarra clásica, si realizan el ejercicio con guitarra acústica o eléctrica utilicen la púa alternando arriba abajo.

Nota.
El hecho de que el ejercicio sea flamenco, no quiere decir que no se pueda realizar en guitarra acústica o eléctrica, lo único que cambia es lo que les explique en el punto 3.


Ejercicio 1
||--------------------------------------------------------------------8--7--6--||
||---------------------------------------------------------8--7--6-------------||
|o--5------------------------------------------8--7--6-------------------------o|
|o---------------------------------8--7--6-------------------------------------o|
||---------------------8--7--6-------------------------------------------------||
||-------8---7---6-------------------------------------------------------------||
    I    Ñ   A   M


Ejercicio 2
||--------------------------------------------------------------------8--7--5--||
||--------------------------------------------------------8--7--5--------------||
|o--6--------------------------------------------------------------------------o|
|o-----------------------------------8--7--5-----------------------------------o|
||-----------------------8--7--5-----------------------------------------------||
||--------8---7----5-----------------------------------------------------------||
    M     Ñ   A    I


Ejercicio 3
||--------------------------------------------------------------------8--6--5--||
||--------------------------------------------------------8--6--5--------------||
|o--7--------------------------------------------------------------------------o|
|o-----------------------------------8--6--5-----------------------------------o|
||-----------------------8--6--5-----------------------------------------------||
||--------8---6----5-----------------------------------------------------------||
    A     Ñ   M    I


Ejercicio 4
||--------------------------------------------------------------------7--6--5--||
||--------------------------------------------------------7--6--5--------------||
|o--8--------------------------------------------------------------------------o|
|o-----------------------------------7--6--5-----------------------------------o|
||-----------------------7--6--5-----------------------------------------------||
||--------7---6----5-----------------------------------------------------------||
    Ñ     A   M    I
        

Este ejercicio NO ES DE VELOCIDAD, debe hacerse a un tempo razonable (70), ya que lo que se pretende es mejorar la digitación y fortalecer la parte lateral de la mano izquierda así como los dedos, especialmente el dedo meñique, no intenten hacerlo demasiado rápido.

Conforme vayan avanzando en este ejercicio, y lo tengan dominado, se van recorriendo un traste hacia atrás, o sea que en lugar de empezar en el traste 5 (como en el ejercicio 1) se recorren al traste 4, y así hasta que logren hacerlo en el traste #1 de la guitarra, aquí es muchísimo más difícil dominarlo, pero la idea es que vayan trasladándose paulatinamente hasta que lo logren.

Este es el primero de 2 ejercicios fundamentales para mejorar la digitación de la mano izquierda, los dos van muy ligados, así que hay que dominar primero este. En la próxima ocasión publicaré la segunda parte.


 Si deseas colaborar con esta sección, mandanos un mensaje.


  Ejercicios   ·  Articulos

© LaCuerda.net · Aviso Legal · Privacidad