LaCuerda.net: Información práctica - Ejercicios
Conexión · Inscripción
Recursos

Información práctica - Ejercicios
Información práctica - Ejercicios
Copyright © 2000 Roberto Ochoa
  Ejercicios   ·  Articulos
Boogie en 12-Bar Blues

por Mario Ochoa

Blues Man El ritmo y progresión de acordes del 12 bar blues es el sostén de todas las tonadas del blues tradicional. En el término "12 bar", la palabra "bar" (barra) es lo mismo a compás. Por lo tanto, el ritmo 12 bar blues es una progresión de 12 compases con un patrón de acordes repetidos una y otra vez según el cantante o solista improvisa una melodía.

Una progresión de acordes es simplemente una serie de acordes usados como base para el acompañamiento rítmico de una canción. La progresión de acordes para los siguientes ritmos del 12 bar blues es:

A5 - D5 - A5 - E5 - D5 - A5 - E5 - (A5 para finalizar)

Usa el primer dedo de la mano derecha (o izquierda, si eres zurdo) sobre todos los acordes en el segundo traste. Escucha atentamente el archivo de sonido para obtener el sentido correcto del ritmo shuffle.



Ritmo 1 12 BAR BLUES RITMO 1


 A5
|------------------|-----------------|-----------------|-----------------|
|------------------|-----------------|-----------------|-----------------|
|------------------|-----------------|-----------------|-----------------|
|-2--2-2-2-2-2-2-2-|-2-2-2-2-2-2-2-2-|-2-2-2-2-2-2-2-2-|-2-2-2-2-2-2-2-2-|
|-0--0-0-0-0-0-0-0-|-0-0-0-0-0-0-0-0-|-0-0-0-0-0-0-0-0-|-0-0-0-0-0-0-0-0-|
|------------------|-----------------|-----------------|-----------------|

 D5                                   A5
|------------------|-----------------|------------------|-----------------|
|------------------|-----------------|------------------|-----------------|
|-2--2-2-2-2-2-2-2-|-2-2-2-2-2-2-2-2-|------------------|-----------------|
|-0--0-0-0-0-0-0-0-|-0-0-0-0-0-0-0-0-|-2--2-2-2-2-2-2-2-|-2-2-2-2-2-2-2-2-|
|------------------|-----------------|-0--0-0-0-0-0-0-0-|-0-0-0-0-0-0-0-0-|
|------------------|-----------------|------------------|-----------------|

 E5                 D5                 A5                 E5                 A5
|------------------|------------------|------------------|------------------|---||
|------------------|------------------|------------------|------------------|---||
|------------------|-2--2-2-2-2-2-2-2-|------------------|------------------|---||
|------------------|-0--0-0-0-0-0-0-0-|-2--2-2-2-2-2-2-2-|------------------|-2-||
|-2--2-2-2-2-2-2-2-|------------------|-0--0-0-0-0-0-0-0-|-2--2-2-2-2-2-2-2-|-0-||
|-0--0-0-0-0-0-0-0-|------------------|------------------|-0--0-0-0-0-0-0-0-|---||
         


Ritmo 2 12 BAR BLUES RITMO 2


 A5
|------------------|-----------------|-----------------|-----------------|
|------------------|-----------------|-----------------|-----------------|
|------------------|-----------------|-----------------|-----------------|
|-2--2-4-4-2-2-4-4-|-2-2-4-4-2-2-4-4-|-2-2-4-4-2-2-4-4-|-2-2-4-4-2-2-4-4-|
|-0--0-0-0-0-0-0-0-|-0-0-0-0-0-0-0-0-|-0-0-0-0-0-0-0-0-|-0-0-0-0-0-0-0-0-|
|------------------|-----------------|-----------------|-----------------|

 D5                                   A5
|------------------|-----------------|------------------|-----------------|
|------------------|-----------------|------------------|-----------------|
|-2--2-4-4-2-2-4-4-|-2-2-4-4-2-2-4-4-|------------------|-----------------|
|-0--0-0-0-0-0-0-0-|-0-0-0-0-0-0-0-0-|-2--2-4-4-2-2-4-4-|-2-2-4-4-2-2-4-4-|
|------------------|-----------------|-0--0-0-0-0-0-0-0-|-0-0-0-0-0-0-0-0-|
|------------------|-----------------|------------------|-----------------|

 E5                 D5                 A5                 E5                 A5
|------------------|------------------|------------------|------------------|---||
|------------------|------------------|------------------|------------------|---||
|------------------|-2--2-4-4-2-2-4-4-|------------------|------------------|---||
|------------------|-0--0-0-0-0-0-0-0-|-2--2-4-4-2-2-4-4-|------------------|-2-||
|-2--2-4-4-2-2-4-4-|------------------|-0--0-0-0-0-0-0-0-|-2--2-4-4-2-2-4-4-|-0-||
|-0--0-0-0-0-0-0-0-|------------------|------------------|-0--0-0-0-0-0-0-0-|---||
         


Ritmo 3 12 BAR BLUES RITMO 3


|------------------|-----------------|-----------------|-----------------|
|------------------|-----------------|-----------------|-----------------|
|------------------|-----------------|-----------------|-----------------|
|-2--2-4-2-2-2-4-2-|-2-2-4-2-2-2-4-2-|-2-2-4-2-2-2-4-2-|-2-2-4-2-2-2-4-2-|
|-0--0-0-0-0-0-0-0-|-0-0-0-0-0-0-0-0-|-0-0-0-0-0-0-0-0-|-0-0-0-0-0-0-0-0-|
|------------------|-----------------|-----------------|-----------------|

|------------------|-----------------|------------------|-----------------|
|------------------|-----------------|------------------|-----------------|
|-2--2-4-2-2-2-4-2-|-2-2-4-2-2-2-4-2-|------------------|-----------------|
|-0--0-0-0-0-0-0-0-|-0-0-0-0-0-0-0-0-|-2--2-4-2-2-2-4-2-|-2-2-4-2-2-2-4-2-|
|------------------|-----------------|-0--0-0-0-0-0-0-0-|-0-0-0-0-0-0-0-0-|
|------------------|-----------------|------------------|-----------------|

|------------------|------------------|------------------|------------------|---||
|------------------|------------------|------------------|------------------|---||
|------------------|-2--2-4-2-2-2-4-2-|------------------|------------------|---||
|------------------|-0--0-0-0-0-0-0-0-|-2--2-4-2-2-2-4-2-|------------------|-2-||
|-2--2-4-2-2-2-4-2-|------------------|-0--0-0-0-0-0-0-0-|-2--2-4-2-2-2-4-2-|-0-||
|-0--0-0-0-0-0-0-0-|------------------|------------------|-0--0-0-0-0-0-0-0-|---||
         


Ritmo 4 12 BAR BLUES RITMO 4


|------------------|-----------------|-----------------|-----------------|
|------------------|-----------------|-----------------|-----------------|
|------------------|-----------------|-----------------|-----------------|
|-2--2-4-4-5-5-4-4-|-2-2-4-4-5-5-4-4-|-2-2-4-4-5-5-4-4-|-2-2-4-4-5-5-4-4-|
|-0--0-0-0-0-0-0-0-|-0-0-0-0-0-0-0-0-|-0-0-0-0-0-0-0-0-|-0-0-0-0-0-0-0-0-|
|------------------|-----------------|-----------------|-----------------|

|------------------|-----------------|------------------|-----------------|
|------------------|-----------------|------------------|-----------------|
|-2--2-4-4-5-5-4-4-|-2-2-4-4-5-5-4-4-|------------------|-----------------|
|-0--0-0-0-0-0-0-0-|-0-0-0-0-0-0-0-0-|-2--2-4-4-5-5-4-4-|-2-2-4-4-5-5-4-4-|
|------------------|-----------------|-0--0-0-0-0-0-0-0-|-0-0-0-0-0-0-0-0-|
|------------------|-----------------|------------------|-----------------|

|------------------|------------------|------------------|------------------|---||
|------------------|------------------|------------------|------------------|---||
|------------------|-2--2-4-4-5-5-4-4-|------------------|------------------|---||
|------------------|-0--0-0-0-0-0-0-0-|-2--2-4-4-5-5-4-4-|------------------|-2-||
|-2--2-4-4-5-5-4-4-|------------------|-0--0-0-0-0-0-0-0-|-2--2-4-4-5-5-4-4-|-0-||
|-0--0-0-0-0-0-0-0-|------------------|------------------|-0--0-0-0-0-0-0-0-|---||
         


Ritmo 5 12 BAR BLUES RITMO 5


|------------------|-----------------|-----------------|-----------------|
|------------------|-----------------|-----------------|-----------------|
|------------------|-----------------|-----------------|-----------------|
|-2--2-4-2-5-2-4-2-|-2-2-4-2-5-2-4-2-|-2-2-4-2-5-2-4-2-|-2-2-4-2-5-2-4-2-|
|-0--0-0-0-0-0-0-0-|-0-0-0-0-0-0-0-0-|-0-0-0-0-0-0-0-0-|-0-0-0-0-0-0-0-0-|
|------------------|-----------------|-----------------|-----------------|

|------------------|-----------------|------------------|-----------------|
|------------------|-----------------|------------------|-----------------|
|-2--2-4-2-5-2-4-2-|-2-2-4-2-5-2-4-2-|------------------|-----------------|
|-0--0-0-0-0-0-0-0-|-0-0-0-0-0-0-0-0-|-2--2-4-2-5-2-4-2-|-2-2-4-2-5-2-4-2-|
|------------------|-----------------|-0--0-0-0-0-0-0-0-|-0-0-0-0-0-0-0-0-|
|------------------|-----------------|------------------|-----------------|

|------------------|------------------|------------------|------------------|---||
|------------------|------------------|------------------|------------------|---||
|------------------|-2--2-4-2-5-2-4-2-|------------------|------------------|---||
|------------------|-0--0-0-0-0-0-0-0-|-2--2-4-2-5-2-4-2-|------------------|-2-||
|-2--2-4-2-5-2-4-2-|------------------|-0--0-0-0-0-0-0-0-|-2--2-4-2-5-2-4-2-|-0-||
|-0--0-0-0-0-0-0-0-|------------------|------------------|-0--0-0-0-0-0-0-0-|---||
         



 Si deseas colaborar con esta sección, mandanos un mensaje.


  Ejercicios   ·  Articulos

© LaCuerda.net · Aviso Legal · Privacidad